А Б В Г Д Е Ж З И Й К Л М Н О П Р С Т У Ф Х Ц Ч Ш Щ Ъ Ы Ь Э Ю Я       A B C D E F G H I J K L M N O P Q R S T U V W X Y Z      0-9

Король и шут - Лесник

К загрузке Guitar Pro (GTP) табулатуры

Аккорды и текст песни Король и шут - Лесник

Hm                   G          A
Замученный дорогой я выбился из сил
Hm                G         A
И в доме лесника я ночлега попросил
Hm                    G            A
С улыбкой добродушной старик меня впустил
Hm                                  G A
И жестом дружелюбным на ужин пригласил эй!

Припев:
Hm                             G
Будь как дома путник и я ни в чём не откажу
Em
Я ни в чём не откажу
A
Я ни в чём ни откажу Хей!
Hm                      G
Множество историй коль желаешь расскажу
Em
Коль желаешь расскажу
A
Коль желаешь расскажу

На улице темнело сидел я за столом
Лесник сидел напротив болтал о том о сём
Что нет среди животных у старика врагов
Что нравиться ему-у подкармливать волков

Припев
И волки среди ночи завыли под окном
Старик заулыбался и решил покинуть дом
Но вскоре возратился с ружьём на перевес
Друзья хотят покушать пойдём приятель в лес!

Припев

Вступление:

Riff1

Две гитары, одна без дисторшена аккордами,
другая приглушенное соло с дисторшеном

Am                      F
E|-------------------------------------------------|
B|-------------------------------------------------|
G|-------------------------------------------------|
D|-------------------------------55-33-------55-33-|
A|-------55-77-------55-77-------------------------|
E|-55-88-------55-88-------55-88-------55-88-------|

Dm                      G
E|-------------------------------------------------|
B|-------------------------------------------------|
G|-------------------------------------------------|
D|-55----------55----------------------------------|
A|----88-77-55----88-77-55----------55----------55-|
E|-------------------------33-77-88----33-77-88----|

Riff2

Затем первая гитара - аккорды с дисторшеном,
вторая - соло (без заглушки), в концертном
исполнении партия второй гитары - это партия скрипки Маши.

Am                 F
E|-------------------------------------|
B|-------------------------------------|
G|-------------------------------------|
D|-----------------------5-3-------5-3-|
A|-----5-7-------5-7-------------------|
E|-5-8-----5-5-8------5-8-----5-5-8----|

Dm                 G
E|--------------------------------------|
B|--------------------------------------|
G|--------------------------------------|
D|-5-------5-5--------------------------|
A|---8-7-5-----8-7-5--------5---------5-|
E|--------------------3-7-8---3-3-7-8---|

Затем идет куплет, гитара играет аккорды без дисторшена,
аккорды глушатся попеременным прижатием/отжатием струн :

Куплет1

Am
Замученный дорогой,
F         Dm
Я выбился из сил,
Am
И в доме лесника я
F        Dm
Ночлега попросил,
Am
С улыбкой добродушной
F           Dm
Старик меня впустил
Am
И с счастьем дружелюбным
F         Dm
На ужин пригласил

Хэй !

Припев: (riff2)

Будь как дома, путник,
Я ни в чем не откажу,
Я ни в чем не откажу,
Я ни в чем не откажу,
Множество историй
Коль желаешь, расскажу,
Коль желаешь, расскажу,
Коль желаешь, расскажу

Куплет2

На улице темнело,
Сидел я за столом,
Лесник сидел напротив,
Болтал о том, о сем,
Что нет среди животных
У старика врагов,
Что нравится ему
Подкармливать волков

Хэй !

Припев

Куплет3

И волки среди ночи
Завыли под окном,
Старик заулыбался
И вдруг покинул дом,
Но вскоре возвратился
С ружьем наперевес:
"Друзья хотят покушать,
Пойдем, приятель, в лес !"

Припев

Аккорд N берётся как Hm на 8 ладу. (Истинное название я не знаю)
Intro1 (В две гитары )
Cm                   Gm
--------------------------66-------66---
------66-99-----66-99-------99-------99-
-55-88-----55-88-----55-88----55-88-----

N                    A#
-66--------66-----------------------------
---99-88-66--99-88-66-----44-66-----44-66-
---------------------33-66-----33-66------

Intro2
Cm            Gm
-----------------6-----6-
----6-9----6-9----9-----9
-5-8---55-8---5-8--55-8--

N             A#
-6-----66------------------
--9-8-6--9-8-6---4-6----4-6
--------------3-6---33-6---
(Все аккорды желательно брать на баре)
Intro1(2 раза)
Intro2(2 раза)
Am                    F          G
Замученный дорогой, я выбился из сил
Am                    F          G
И в доме лесника я ночлега попросил
Am                    F          G
С улыбкой добродушной старик меня впустил
Am
И жестом дружелюбном на ужин пригласил.
Припев:
Am                          F
Будь как дома путник я ни в чём не откажу,
Dm                    G
Я ни в чём не откажу, я ни в чём не откажу!
Множество историй коль желаешь, расскажу,
Коль желаешь, расскажу, коль желаешь, расскажу!

На улице темнело, сидел я за столом,
Лесник сидел напротив, болтал о том, о сем,
Что нет среди животных у старика врагов,
Что нравится ему подкармливать волков!

Пр.

И волки среди ночи завыли под окном,
Старик заулыбался и вдруг покинул дом,
Но вскоре возвратился с ружьем наперевес:
"Друзья хотят покушать, пойдем, приятель, в лес !"

Пр.

Am   Dm    G    F    A5   D5   G5   F5   E5
|-5-||-5-||-3-||-1-| |---||---||---||---||---|
|-5-||-6-||-3-||-1-| |---||---||---||---||---|
|-5-||-7-||-4-||-2-| |---||-7-||---||---||-9-|
|-7-||-7-||-5-||-3-| |-7-||-7-||-5-||-3-||-9-|
|-7-||-5-||-5-||-3-| |-7-||-5-||-5-||-3-||-7-|
|-5-||-5-||-3-||-1-| |-5-||---||-3-||-1-||---|

Вступление:
Am                        F
Gtr.1(elec)
E|-------------------------|-------------------------|
B|-------------------------|-------88-66-------88-66-|
G|----55-77-99----55-77-99-|----55----------55-------|
D|-77----------77----------|-77----------77----------|
A|-------------------------|-------------------------|
E|-------------------------|-------------------------|
Gtr.2(acous)
E|-5-----------------------|-1-|
B|-5-----------------------|-1-|
G|-5-----------------------|-2-|
D|-7-----------------------|-3-|
A|-7-----------------------|-3-|
E|-5-----------------------|-1-|

Dm                        G
E|-------------------------|-------------------------|
B|-88-66-55----88-66-55----|-88----------88----------|
G|----------77----------77-|----44-55-77----44-55-77-|
D|-------------------------|-------------------------|
A|-------------------------|-------------------------|
E|-------------------------|-------------------------|

E|-5-----------------------|-3-|
B|-6-----------------------|-3-|
G|-7-----------------------|-4-|
D|-7-----------------------|-5-|
A|-5-----------------------|-5-|
E|-5-----------------------|-3-|

Am                        F
E|-------------------------|-------------------------|
B|-------------------------|-------88-66-------88-66-|
G|----55-77-99----55-77-99-|----55----------55-------|
D|-77----------77----------|-77----------77----------|
A|-------------------------|-------------------------|
E|-------------------------|-------------------------|

E|-7-----------------------|-1-|
B|-7-----------------------|-1-|
G|-7-----------------------|-2-|
D|-5-----------------------|-3-|
A|-5-----------------------|-3-|
E|-7-----------------------|-1-|

Dm                        G
E|-------------------------|----------------------|
B|-88-66-55----88-66-55----|-88-------------------|
G|----------77----------77-|----44-55-77----4-5-7-|
D|-------------------------|--------------5-------|
A|-------------------------|----------------------|
E|-------------------------|----------------------|

|-5-----------------------|-3-|
|-6-----------------------|-3-|
|-7-----------------------|-4-|
|-7-----------------------|-5-|
|-5-----------------------|-5-|
|-5-----------------------|-3-|

Am                   F
E|--------------------|-----3-1-----3-1-| (*)- в припеве так же
B|---1-3-5------1-3-5-|---1-------1-----|  паралельно играется
G|-2-------2--2-------|-2-------2-------|  это соло.
D|--------------------|-----------------|
A|--------------------|-----------------|
E|--------------------|-----------------|

Dm                   G
E|--------------------|-----------------|
B|-8-6-5---8--8-6-5---|-8---------------|
G|-------7----------7-|---4-5-7---4-5-7-|
D|--------------------|---------5-------|
A|--------------------|-----------------|
E|--------------------|-----------------|

A5                         F5
E|-------------------------|------3--1---------3--1--|
B|---1--3--5------1--3--5--|----1-----------1--------|
G|-2---------2--2----------|-2-----------2-----------|
D|-------------------------|-------------------------|
A|-------------------------|-------------------------|
E|-------------------------|-------------------------|

Gtr.2(elc)
E|-------------------------|-------------------------|
B|-------------------------|-------------------------|
G|-------------------------|-------------------------|
D|-7-----------------------|-3-----------------------|
A|-7-7-7-7-7-7-7-7-7-7-7-7-|-3-3-3-3-3-3-3-3-3-3-3-3-|
E|-5-5-5-5-5-5-5-5-5-5-5-5-|-1-1-1-1-1-1-1-1-1-1-1-1-|

D5                         G5                        A5
E|-------------------------|-------------------------|
B|-8--6--5----8--8-6--5----|-8-----------------------|
G|---------7------------7--|----4--5--7-----4--5--7--|
D|-------------------------|-------------5-----------|
A|-------------------------|-------------------------|
E|-------------------------|-------------------------|

E|-------------------------|-------------------------|---|
B|-------------------------|-------------------------|---|
G|-7-----------------------|-------------------------|---|
D|-7-7-7-7-7-7-7-7-7-7-7-7-|-5-----------------------|-7-|
A|-5-5-5-5-5-5-5-5-5-5-5-5-|-5-5-5-5-5-5-5-5-5-5-5-5-|-7-|
E|-------------------------|-3-3-3-3-3-3-3-3-3-3-3-3-|-5-|

A5           F5            D5   C5 D5    E5
E|------------|------------|-------------|-----------|
B|------------|------------|-------------|-----------|
G|------------|------------|-------------|-9-x-x-x-x-| 2 раза
D|-7----------|-3----------|--7-7--5-7---|-9-x-x-x-x-|
A|-7----------|-3----------|--5-5--3-5---|-7-x-x-x-x-|
E|-5----------|-1----------|-------------|-----------|

Am                     F        G
Замученный дорогой,   я выбился   из   сил.
E|----------5----------5-----------1-----------3-|
B|----------5----------5-----------1-----------3-|
G|----------5----------5-----------2-----------4-|
D|----------7----------7-----------3-----------5-|
A|----------7----------7-----------3-----------5-|
E|----5-----5-----5----5------1----1---3-------3-|

И в доме лесника я ночлега попросил.
С улыбкой добродушной старик меня пустил.
A5
И жестом дружелюбным. На ужин пригласил.
E|-----|
B|-----|
G|-----|
D|---7-|
A|---7-|
E|---5-|

Х - э - й !
A5    A5  D5 E5
E|-------------------|
B|-------------------|
G|--------------7--9-|
D|----7------7--7--9-|
A|----7------7--5--7-|
E|----5------5-------|

припев:

A5                          F5
Будь как дома путник,я ни в чём не откажу,
D5                   G5           G5(без p.m.)
Я ни в чём не откажу,я ни в чём не откажу!  Х - э - й !
A5(*)                   F5
Множество историй,коль желаешь расскажу,
D5                    G5
Коль желаешь расскажу,коль желаешь расскажу!

A5             D5   G5       A5            G5   F5
E|----------------------------|---------------------------|
B|----------------------------|---------------------------|
G|----------------7-x---------|---------------------------|
D|-7--x--7---7-7--7-x--5--5---|-7--x--7--7-7--5-x--3--3---|
A|-7--x--7---7-7--5-x--5--5---|-7--x--7--7-7--5-x--3--3---|
E|-5--x--5---5-5-------3--3---|-5--x--5--5-5--3-x--1--1---|

На улице темнело,
Сидел я за столом.
Лесник сидел напротив,
Болтал о том о сем.
Что нет среди животных
У старика врагов,
Что нравится ему
Подкармливать волков.

припев.

И волки среди ночи
Завыли под окном.
Старик заулыбался
И вдруг покинул дом.
Но вскоре возвратился
С ружьем на перевес:
"Друзья хотят покушать,
Пойдем приятель в лес!"

припев.

Am                       G
E|-----------------------|-----------------------|
B|-----------------------|-----------------------|
G|-----------------------|-----------------------|
D|-----------------------|-----------------------|
A|--------9-7--------9-7-|--------7-5--------7-5-|
E|-5--5-5-----5--5-5-----|-3--3-3-----3--3-3-----|

Am                       G           A5
E|-----------------------|---------------|
B|-----------------------|---------------|
G|-----------------------|---------------|
D|-----------------------|-------------7-|
A|--------9-7--------9-7-|--------7-5--7-|
E|-5--5-5-----5--5-5-----|-3--3-3------5-|

P.m. - "заглушка" кистью правой руки

Intro:(p.m. все время)
Am
E|-------------0-0-|-------------0-0-|
B|-----1-1-3-3-----|-----1-1-3-3-----|
G|-2-2-------------|-2-2-------------|
D|-----------------|-----------------|
A|-----------------|-----------------|
E|-----------------|-----------------|

F
E|---------3-3-1-1-|---------3-3-1-1-|
B|-----1-1---------|-----1-1---------|
G|-2-2-------------|-2-2-------------|
D|-----------------|-----------------|
A|-----------------|-----------------|
E|-----------------|-----------------|

Dm
E|-3-3-1-1-0-0-----|-3-3-1-1-0-0-----|
B|-------------3-3-|-------------3-3-|
G|-----------------|-----------------|
D|-----------------|-----------------|
A|-----------------|-----------------|
E|-----------------|-----------------|
G
E|-----------------|-----------------|
B|-------------3-3-|-------------3-3-|
G|-----4-4-5-5-----|-----4-4-5-5-----|
D|-5-5-------------|-5-5-------------|
A|-----------------|-----------------|
E|-----------------|-----------------|
Не уверен насчет двух последних тактов. И там еще есть вариации.

Играется Intro 2 раза, затем оно же со следующим риффом:

p.m. - все время
|-A5-/-/-/-/-/-/-/-|-/-/-/-/-/-/-/-/-|
|-F5-/-/-/-/-/-/-/-|-/-/-/-/-/-/-/-/-|

|-D5-/-/-/-/-/-/-/-|-/-/-/-/-/-/-/-/-|
|-G5-/-/-/-/-/-/-/-|-/-/-/-/-/-/-/-/-|

Затем дважды рифф: (ч - пауза)
|-A5-/-/-/-/-/-/-F5-|---/-/-/-/-/-/-/-|
|-D5-ч-/-ч-C5-D5-ч-/|-ч-G5-/-/-/-/-/-/|

Аккорды в скобках (A5) и т.п. означают ноты бас-гитары (можно
соответственно заменить гитарой.
(A5)               (F5)       (G5)
Измученный дорогой, я выбился из сил.
(A5)              (F5)      (G5)
И в доме лесника я ночлега попросил.
С улыбкой добродушной он меня в пустил.
A5
И жестом дружелюбным на ужин пригласил.

Аккорды:
|-D5-/-/-/-/-/-/-/-|-C5-----Bb5---C5-| x2

Chorus (с Intro'шным риффом):
A5                            F5
Будь как дома, путник, я не в чем не откажу,
D5                    G5
Я ни в чем не откажу, я ни в чем не откажу!
A5                         F5
Множество историй, коль желаешь, расскажу,
D5                      G5
Коль желаешь, расскажу, коль желаешь, расскажу!

На улице темнело, сидел я за столом.
Лесник сидел напротив, болтал о том, о сем.
Что нет среди животных у старика врагов,
Что нравится ему подкармливать волков.

Chorus

И волки среди ночи завыли под окном.
Старик заулыбался и вдруг покинул дом.
Но вскоре возвратился с ружьем наперевес:
"Друзья хотят покушать, пойдем, приятель, в лес!"

Coda: что-то типа того, но в другой тональности...

G|------------------------------------|
D|----3-3-4-3-----3-3-4-3-4---6-4-----|
A|0-----------0-----------------------|
E|--------------------------------2---|

E|-----------------------------------|
B|-----3-3-4-3-----3-3-4-3-4---6-4-8-|
G|-0---------------------------------|
D|-----------------------------------|

Онлайн тюнер, камертон, генератор тона

Стоп
Строй:


Форма волны:
Блок ручного управления частотой
Hz
Старт/Стоп

Прибор для настройки гитар и других инструментов путем сравнения с эталонным звуком.

Для настройки гитары: щелкните мышью по кнопке "Струна 1", отрегулируйте высоту звучания первой (тонкой) струны вашего инструмента в соответствии со звуком эталона (добейтесь звучания "в унисон", без "биения" звука). Повторите процедуру для остальных струн.

Если процесс вызывает у вас затруднения: не можете определить соответствие звука - пробуйте изменить форму волны в настройках.

Что скажете?


Факт из биографии Король и шут

«...«Король и Шут» (аббревиатура КиШ) — российская панк-рок-группа. Наиболее известна своим необычным для панк-рока стилем исполнения: тексты, представляющие собой фэнтези-рассказы в стиле хоррор, законченные истории, обычно мистические или исторические, наложены на ритмичную панк-рок музыку. Сценический имидж группы включает в себя пугающий грим, соответствующий тематике песен....»