А Б В Г Д Е Ж З И Й К Л М Н О П Р С Т У Ф Х Ц Ч Ш Щ Ъ Ы Ь Э Ю Я       A B C D E F G H I J K L M N O P Q R S T U V W X Y Z      0-9

Король и шут - Прыгну со скалы

К загрузке Guitar Pro (GTP) табулатуры

Аккорды и текст песни Король и шут - Прыгну со скалы

Am            Dm    E
С головы сорвал ветер мой колпак,
Я хотел любви, но вышло все не так,
C     Dm        F          E
Знаю я ничего в жизни не вернуть
C        F        E
И теперь у меня один лишь только путь...

Припев:

Am             G         Dm     E
Разбежавшись, прыгну со скалы,
Вот я был и вот меня не стало,
C                        Em
И когда об этом вдруг узнаешь ты,
Dm                  E   Am
Тогда поймешь, кого ты потеряла.

Быть таким, как все с детства не умел
Видимо такой в жизни мой удел,
А она, да что она? Вечно мне лгала
И меня никогда понять бы не смогла.

Разбежавшись, прыгну со скалы,
Вот я был и вот меня не стало,
И когда об этом вдруг узнаешь ты,
Тогда поймешь, кого ты потеряла.

Гордо скинув плащ, в даль направлю взор,
Может она ждет? Вряд ли... Это вздор,
И издав дикий крик, камнем брошусь вниз

Это моей жизни заключительный каприз.

Разбежавшись, прыгну со скалы,
Вот я был и вот меня не стало,
И тогда себя возненавидишь ты,
Лишь осознав, кого ты потеряла

Dm            Gm    A
С головы сорвал ветер мой колпак,
Я хотел любви, но вышло все не так,
F     G        Gm          Am
Знаю я ничего в жизни не вернуть
F        G        A
И теперь y меня один лишь только путь...

Припев:
Dm             C         Gm     A
Разбежавшись, прыгну со скалы,
вот я был и вот меня не стало,
F                        Am
И когда об зтом вдруг узнаешь ты,
Gm                  A   Dm
Тогда поймешь, кого ты потеряла.

Solo
x1          x2
E|---------------------------|-3/5-3-1-0-|3/10-8-----------|
B|-3/6-6-6-6-6-6-6-5-3-1---3-|-----------|------10-8-(5-3)-|
G|-----------------------2---|-----------|-----------------|
D|---------------------------|-----------|-----------------|
A|---------------------------|-----------|-----------------|
E|---------------------------|-----------|-----------------|

Dm         C           Gm     Am
E|-1--1--1--1-0---------------5--3-1--0---|
H|----------------3--1----3---------------|
G|----------------------2-----------------|

Dm        C            Gm      Am         Dm
E|-1--1--1--1-0---------------10--8-5--3---------|
H|----------------3--1----3------------------3---|
G|----------------------2------------------------|

и в самом конце:

Dm        C            Gm      Am         Dm
E|-1--1--1--1-0---------------10--8-5--5-----10---|
H|----------------3--1----3-----------------------|
G|----------------------2-------------------------|

Dm             Bb    C
С головы сорвал ветер мой колпак,
Dm             Bb    A
Я хотел любви, но вышло все не так,
F     G       C        F
Знаю я ничего в жизни не вернуть
F        Gm        A
И теперь у меня один лишь только путь...

Припев:

Dm           Bb        C     A
Разбежавшись, прыгну со скалы,
Dm         C           Gm    A
Вот я был и вот меня не стало,
F       Bb            C       F
И когда об этом вдруг узнаешь ты,
Gm         A       A7   Dm
Тогда поймешь, кого ты потеряла.

Быть таким, как все с детства не умел
Видимо такой в жизни мой удел,
А она, да что она? Вечно мне лгала
И меня никогда понять бы не смогла.

Разбежавшись, прыгну со скалы,
Вот я был и вот меня не стало,
И когда об этом вдруг узнаешь ты,
Тогда поймешь, кого ты потеряла.

Гордо скинув плащ, в даль направлю взор,
Может она ждет? Вряд ли... Это вздор,
И издав дикий крик, камнем брошусь вниз
Это моей жизни заключительный каприз.

Разбежавшись, прыгну со скалы,
Вот я был и вот меня не стало,
И когда об этом вдруг узнаешь ты,
Тогда поймешь, кого ты потеряла.

Dm           Gm    Am
E|1-0-1-3-5---3-1---5-6-5--|
B|3-3-3-3-3---3-3---5-5-5-*|
G|2-2-2-2-2---3-3---5-5-5--|
D|------------------------*|
A|-------------------------|
E|-------------------------|
С головы сорвал ветер мой колпак
Я хотел любви, но вышло все не так

F     Gm      A#      Am   F       Gm      A
E|1-1-1-3-3-3---1-1-1!3-0----1-1-1---3-3-3---5-5-5-9-9-5-|
B|1-1-1-3-3-3!--3-3!3-3-1----1-1-1---3-3-3---5-5-5-5-5-5-|
G|2-2-2-3-3-3---3-3-3-3-2----2-2-2---3-3-3---6-6-6-6-6-6-|
D|-------------------------------------------------------|
A|-------------------------------------------------------|
E|-------------------------------------------------------|
Знаю я ничего в жизни не вернуть и теперь у меня
один лишь только путь.

Drive: A5
E|--------------|
B|--------------|
G|--------------|
D|7-7-7-7-7-7-7-|
A|7-7-7-7-7-7-7-|
E|5-5-5-5-5-5-5-|

Припев:
Dm         C    Gm  A7         Dm        C
Gm A7
E|-------------------(-5-3-1-0-)-------------------------------|
B|-6-6-6-6-5---------------------6-6-6-6-5---------------------|
G|-----------7-5---7-----------------------7-5-5-----(-7-5-----|
D|---------------7-------------------------------7-7------7-5-)|
A|-------------------------------------------------------------|
E|-------------------------------------------------------------|
Разбежавшись прыгну со скалы    Вот я был и вот
меня не стало

F             Am          Gm        A7    Dm
E|1-1-1-1-1-1-3-5-5-3-1-0---1-1-1-1-1-1-1-3--------|
B|------------------⁄_/---------------------3-3-3--|
G|-------------------------------------------------|
D|-------------------------------------------------|
A|-------------------------------------------------|
E|-------------------------------------------------|
И когда об этом вдруг узнаешь ты, тогда поймешь
кого ты потеряла.

Проигрыш:
Dm         C    Gm  A7         Dm        C
Gm A7
E|-------------------(-5-3-1-0-)-------------------------------|
B|-6-6-6-6-5---------------------6-6-6-6-5---------------------|
G|-----------7-5---7-----------------------7-5-5-----(-7-5-----|
D|---------------7-------------------------------7-7------7-5-)|
A|-------------------------------------------------------------|
E|-------------------------------------------------------------|

Быть таким как все с детства не умел
Видимо такой в жизни мой удел
А она да что она вечно мне лгала
И меня никогда понять бы не смогла

Припев:

Гордо скинув плащ вдаль направлю взор
Может она ждет вряд ли это вздор
И издав дикий крик камнем брошусь вниз
Это моей жизни заключительный каприз

Припев:

Разбежавшись прыгну со скалы
Вот я был и вот меня не стало
И тогда себя возненавидишь ты
Когда поймешь кого ты потеряла.)

В конце:
Dm         C    Gm  A7         Dm        C
Gm A7         Dm(X)
------------------(-5-3-1-0-)--------------------------------10|
6-6-6-6-5---------------------6-6-6-6-5------------------------|
----------7-5---7-----------------------7-5-5-----(-7-5--------|
--------------7-------------------------------7-7------7-5-)---|
---------------------------------------------------------------|
---------------------------------------------------------------|

*| - реприза (повтор)
⁄_/ - лига (объединение нот)
! - усиление

Em          Am     Hm
С головы сорвал ветер мой колпак,
Em               Am     D
Я хотел любви, но вышло все не так.
G    A        C          Em
Знаю я ничего в жизни не вернуть,
G        A        C               Em
И теперь у меня один лишь только путь.

Em                       F#
Разбежавшись, прыгну со скалы,
Em                      F#
Вот я был, и вот меня не стало,
G              C
И тогда, тогда узнаешь ты,
G             F#        Em
Тогда поймешь, кого ты потеряла.

Проигрыш:

1|----------------------5-7-5--|
2|---7----5-7-5----5---------7-|
3|----------------6------------|

Быть таким, как все, с детства не умел,
Видимо такой в жизни мой удел.
А она, да что она, вечно мне лгала,
И меня никогда понять бы не смогла.

Разбежавшись, прыгну со скалы,
Вот я был, и вот меня не стало,
И тогда, тогда узнаешь ты,
Тогда поймешь, кого ты потеряла.

Гордо вскинув плащ, вдаль направлю взор,
Может, она ждет?.. Вряд ли, Это вздор.
И, издав дикий крик, камнем брошусь вниз
Ветром в моей жизни завершительный каприз.

Разбежавшись, прыгну со скалы,
Вот я был, и вот меня не стало,
И тогда возненавидишь ты,
Лишишься сна, кого ты потеряла.

Онлайн тюнер, камертон, генератор тона

Стоп
Строй:


Форма волны:
Блок ручного управления частотой
Hz
Старт/Стоп

Прибор для настройки гитар и других инструментов путем сравнения с эталонным звуком.

Для настройки гитары: щелкните мышью по кнопке "Струна 1", отрегулируйте высоту звучания первой (тонкой) струны вашего инструмента в соответствии со звуком эталона (добейтесь звучания "в унисон", без "биения" звука). Повторите процедуру для остальных струн.

Если процесс вызывает у вас затруднения: не можете определить соответствие звука - пробуйте изменить форму волны в настройках.

Что вы думаете об исполнителе?


Факт из биографии Король и шут

«...Следом группа выпустила один из своих самых успешных альбомов «Как в старой сказке». Группа повторила успех в хит-парадах — песни «Проклятый старый дом», «Мёртвый анархист» и «Медведь» попали на вершину «Чартовой дюжины», клип на «Проклятый старый дом», снятый режиссёром Валерием Хаттиным, пустили в ротацию MTV Россия. Группа получила целый ряд премий: «ПобоRoll», «Овация», премию журнала Fuzz....»